Para los aficionados a la guitarra

 :: Otros Intereses ::  :: Música

Ir abajo

Tocando Para los aficionados a la guitarra

Mensaje por Thor el 11/06/08, 11:12 pm

TuzkiMusic Este post lo ago para q ustedes aporten los acordes de sus canciones favoritas,tambien aser pedidos,la pagina q siempre uso y me parese fiable es http://www.lacuerda.net/ ,de ahi vajo todos los acordes y partituras de cancioens q aparecen q me gustan. mi genero favorito baladas,mi grupo favorito es camila y aqui les dejo el link de mi cancion favorita pa q la saquen en guitarra http://lacuerda.net/tabs/c/camila/solo_para_ti-4.shtml Espero sus aportes grasias.
avatar
Thor
Newbie
Newbie

Masculino Pez Caballo
Procedencia : peru-puno-puno
Cantidad de envíos : 13
Puntos €x : 3543
Pertenencias :
Estrellas0
Pases0
Mascotas0
Objetos0
Premios0


Ver perfil de usuario

Volver arriba Ir abajo

Tocando Re: Para los aficionados a la guitarra

Mensaje por Sikaroz el 11/06/08, 11:54 pm

Seria Bueno ke pusieras las Partituras aki de mas o menos las bandas que te gustan.. pero en fin buen Aporte Grax..
avatar
Sikaroz
Friki AnimeFall
Friki AnimeFall

Masculino Sagitario Cabra
Procedencia : No es Precisa
Cantidad de envíos : 1405
Puntos €x : 3573
Pertenencias :
Estrellas
Mascotas
Objetos
Premios0


Ver perfil de usuario http://www.animefall.forumotion.com

Volver arriba Ir abajo

Tocando Re: Para los aficionados a la guitarra

Mensaje por Thor el 13/06/08, 06:43 pm

esta bien pondre unas cuantas partituras aver si escucharon esta de MAgo de oz ESPERO APORTES SUYOS DE SUS CANCIOENS FAAVORITAS ASI TAMBIEN COMO PEDIDOS.

Pensando en ty Guitarra acustica:



(0:48)` PERFECTA UN 90% (sacado de A COSTA DA ROCK).....

(2) DO
E.-----------------------------------------------------------
B.--1-----1--------0-----0--------3-----3--------1-----1-----
G.----0-----0--------0-----0--------0-----0--------0-----0---
D.------2-----2--------2-----2--------2-----2--------2-----2-
A.--3--------------3--------------3--------------3-----------
E.-----------------------------------------------------------
LA
----------------------------------------------/
--1-----1--------0-----0--------3-----3-------/ TODO ESTO SOLO SE REPITE 2 VECES ANTES DE QUE
----2-----2--------2-----2--------2-----2-----/ EMPIECE A CANTAR JOSE. EL RESTO DE LA CANCION.
------2-----2--------2-----2--------2-----2---/ SOLO UNA.
--0--------------0--------------0-------------/
----------------------------------------------/

(1)
E.----------
B.--1-1-----
G.----------
D.---------- TERMINANDO LAS 2 VECES SIGUE ESTO
A.--0-2----- PARA VOLVER A EMPEZAR CON DO
E.----------

ENTONCES EL RESTO DE LA CANCION SE TOCA TODO SEGUIDO (1 Y 2)

Solo de Guitarra Electrica:

E.--12~-------------------------------------------------------------------------
B.-----15-13-12-13-15--13-12----12-13~-12------12-13-12-------------------------
G.---------------------------14-----------14~-----------14-12-14-12-------------
D.------------------------------------------------------------------14-12-14~---
A.------------------------------------------------------------------------------
E.------------------------------------------------------------------------------

---------------------------------------------------------------12-13/15-15----
--15-13-12-13-15--13-12----12-13~-12------12-13-12----12-13-15----------------
------------------------14-----------14~-----------14-------------------------
------------------------------------------------------------------------------
------------------------------------------------------------------------------
------------------------------------------------------------------------------
------------------------------------------------------------------------------

--13-15-13-12-13-12----12------------------------------------------
--------------------15----15-13-15-13-12-13-12---------------------
-----------------------------------------------14--14--------------
-------------------------------------------------------------------
-------------------------------------------------------------------
-------------------------------------------------------------------

-----------------------12-------12-------12-13/15-15---------------
-----12-13----12-13-15----13-15----13-15---------------------------
--14-------14------------------------------------------------------
-------------------------------------------------------------------
-------------------------------------------------------------------
-------------------------------------------------------------------

--13-15-13-12-13-12----12------------------------------------------
--------------------15----15-13-15-13-12-13-12---------------------
-----------------------------------------------14--14--------------
-------------------------------------------------------------------
-------------------------------------------------------------------
-------------------------------------------------------------------
avatar
Thor
Newbie
Newbie

Masculino Pez Caballo
Procedencia : peru-puno-puno
Cantidad de envíos : 13
Puntos €x : 3543
Pertenencias :
Estrellas0
Pases0
Mascotas0
Objetos0
Premios0


Ver perfil de usuario

Volver arriba Ir abajo

Tocando Re: Para los aficionados a la guitarra

Mensaje por -LüK- el 14/06/08, 11:42 am

Muy buen aporte. Creo que podría apreciarlo más si supiera tocar guitarra.
Una de las ideas de este subforo era justamente de intercambiar partituras.
Ya pondré algunas partituras de Apocalyptica ^___^ (pero son para cuatro cellos) Llorando

_________________

(:

Lets get physical 

avatar
-LüK-
Admin
Admin

Masculino Escorpio Caballo
Procedencia : Argentina - Salta
Cantidad de envíos : 2156
Puntos €x : 5035
Pertenencias :
Estrellas
Mascotas
Objetos
Premios


Ver perfil de usuario

Volver arriba Ir abajo

Tocando Re: Para los aficionados a la guitarra

Mensaje por izzi el 14/06/08, 09:24 pm

genial! a ponerce a practicar! Muerto de Risa
avatar
izzi
Friki AnimeFall
Friki AnimeFall

Masculino Capricornio Dragón
Procedencia : catamarca
Cantidad de envíos : 626
Puntos €x : 3171
Pertenencias :
Estrellas
Mascotas
Objetos
Premios


Ver perfil de usuario http://www.flickr.com/photos/izzi_ctca

Volver arriba Ir abajo

Tocando Re: Para los aficionados a la guitarra

Mensaje por Thor el 15/06/08, 02:37 am

Bueno aca les dejo otra partitura de camila sacado de ya saven www.lacuerda.net ahis e las dejo Solo para ty

E A D G B e
Em7 0 2 2 0 3 0
Dadd9 0 0 0 2 3 0
C9 0 3 2 0 3 3
G 3 5 5 4 3 3
1 0 0 2 0 1 3
G(2) 3 2 0 0 3 3
D/G 2 0 0 2 3 2
Em/G 0 2 2 0 3 3
Am7 0 0 2 0 1 0
D 0 0 0 2 3 2
Em 0 2 2 0 0 0
C 0 3 2 0 1 0

Lleva capo en el primer traste,

Las primeras dos estrofas llevan este arpegio en donde se marca
cada nota

Em7 Dadd9 C9 G
e -----------------0-----------------------
B -------3-----------3-------3-------------
G -----0---0-----2-------------0------4----
D ---2---------0-----------2------------5--
A -----------------------3----------5------
E ---------------------------------3-------

Em7 Dadd9
Eres todo lo que pedía
C9
Lo que mi alma vacía
G
Quería sentir

Em7 Dadd9
Eres lo que tanto esperaba
C9
Lo que en sueños buscaba
G
Y que en ti descubrí





1 Dadd9 G2 D/G Em/G Am7
e -----3----------------0----------3-----3---2-----2--3---------------
B -1-----1-----1----------3--------3---3-----3---3----3---3-----1---1-
G ---0-------0--------2--------2---0-0-------2-2------0-----0------0--
D ---------2--------0-----------------------------------2---------2---
A -0------------------------------------------------------------0-----
E ---------------------------------3---------2--------0---------------



Dadd9 C9
e ------0----------------------------------
B ----------3-------------------3-----3----
G ----2---2----2h0-0-0--------0---------0--
D --0----------------------0h2------2------
A -----------------------3-----------------
E -----------------------------------------


1 Dadd9
Tú has llegado a encender
G(2)
Cada parte de mi alma
D/G Em/G
Cada espacio de mi ser
Am7
Ya no tengo corazón
Dadd9
Ni ojos para nadie
C9
Solo para ti

(Estas estrofas se toca con rasgueo)

Em/G D
Eres el amor de mi vida
C9
El destino lo sabia
G
Y hoy te puso ante mí
Em/G D
Y cada vez que miro al pasado
C9
Es que entiendo que a tu lado
G
Siempre pertenecí


1 D
Tú has llegado a encender
G(2)
Cada parte de mi alma
D/G Em/G
Cada espacio de mi ser
1
Ya no tengo corazón
D
Ni ojos para nadie

C9
Solo para ti
Em/G
Solo para ti
1
Solo para ti
Em
Solo para ti

C
Esto es de verdad
G
Lo puedo sentir
C9
Se que mi lugar
D C
Es junto a tiiiiiiiiii
Em
uuuuuuuuuu
C9 –Em/G


Em/G D
Eres todo lo que pedía
C9
Lo que no conocía
C9
Y que en ti descubrí..

Ahí, al final, io termino kn G en vez de C9, se oie mejor
si termina asi.

Espero ver aportes suyos o si no pedidos si no saven tocar guitarra no importa igual tendran la letra de su cancion favorita TuzkiMusic .
avatar
Thor
Newbie
Newbie

Masculino Pez Caballo
Procedencia : peru-puno-puno
Cantidad de envíos : 13
Puntos €x : 3543
Pertenencias :
Estrellas0
Pases0
Mascotas0
Objetos0
Premios0


Ver perfil de usuario

Volver arriba Ir abajo

Tocando Re: Para los aficionados a la guitarra

Mensaje por phnxdkkt555 el 18/06/08, 07:02 pm

Gracias por las partituras, pero dejé la guitarra por el piano hace años ^^'.
Otro sitio bueno es http://www.ultimate-guitar.com
Deberían dar crédito al autor de la tablatura, me parece que se lo merece.
avatar
phnxdkkt555
Fanatic
Fanatic

Masculino Aries Mono
Procedencia : Argentina - Catamarca
Cantidad de envíos : 42
Puntos €x : 3536
Pertenencias :
Estrellas0
Pases0
Mascotas0
Objetos0
Premios0


Ver perfil de usuario

Volver arriba Ir abajo

Tocando Re: Para los aficionados a la guitarra

Mensaje por Sikaroz el 18/06/08, 08:13 pm

Eh.. phnxdkkt555 sabes tocar bien el piano??

Pasate las partituras de algunas canciones de anime..

Yo me se unas cuantas.. pero no muy complejas
Muerto de Risa
avatar
Sikaroz
Friki AnimeFall
Friki AnimeFall

Masculino Sagitario Cabra
Procedencia : No es Precisa
Cantidad de envíos : 1405
Puntos €x : 3573
Pertenencias :
Estrellas
Mascotas
Objetos
Premios0


Ver perfil de usuario http://www.animefall.forumotion.com

Volver arriba Ir abajo

Tocando Re: Para los aficionados a la guitarra

Mensaje por phnxdkkt555 el 18/06/08, 10:06 pm

Más o menos, eso no debería juzgarlo yo ^^'.
Intenté tocar algunas canciones, saqué la mitad de "Say Goodbye", compuesta por Yuki Kajiura para el anime .hack//sign (creo que era sign) porque perdí la segunda hoja :74:
Probé "Hikari" de Kingdom Hearts y "Butterfly" de Digimon pero me parecieron muy simples, quizás haya bajado una versión simplificada. Tengo varios sitios a los que recurro siempre para encontrar partituras de anime.
Me tomó un poco de tiempo encontrar Say Goodbye, es la versión para piano y violín que pretendía tocar con una amiga, intérprete de ese instrumento.
Después te paso algunas si quieres.
avatar
phnxdkkt555
Fanatic
Fanatic

Masculino Aries Mono
Procedencia : Argentina - Catamarca
Cantidad de envíos : 42
Puntos €x : 3536
Pertenencias :
Estrellas0
Pases0
Mascotas0
Objetos0
Premios0


Ver perfil de usuario

Volver arriba Ir abajo

Tocando Re: Para los aficionados a la guitarra

Mensaje por Sk8rpioN el 18/08/08, 09:13 pm

Yo tambien recomendaria que utilizaran el guitar pro 5 ... me ayudo mucho en la guitarra ese programa .. bienen partituras solo para este programa que se pueden encontrar en www.ultimate-guitar.com ,al programa me lo baje del ares... muy bueno la verdad..

Sk8rpioN
Starting otaku
Starting otaku

Masculino Virgo Caballo
Procedencia : Catamarca - Argentina
Cantidad de envíos : 5
Puntos €x : 3473
Pertenencias :
Estrellas0
Pases0
Mascotas0
Objetos0
Premios0


Ver perfil de usuario

Volver arriba Ir abajo

Tocando Re: Para los aficionados a la guitarra

Mensaje por -LüK- el 18/08/08, 09:32 pm

phnxdkkt555 escribió:Más o menos, eso no debería juzgarlo yo ^^'.
Intenté tocar algunas canciones, saqué la mitad de "Say Goodbye", compuesta por Yuki Kajiura para el anime .hack//sign (creo que era sign) porque perdí la segunda hoja :74:
Probé "Hikari" de Kingdom Hearts y "Butterfly" de Digimon pero me parecieron muy simples, quizás haya bajado una versión simplificada. Tengo varios sitios a los que recurro siempre para encontrar partituras de anime.
Me tomó un poco de tiempo encontrar Say Goodbye, es la versión para piano y violín que pretendía tocar con una amiga, intérprete de ese instrumento.
Después te paso algunas si quieres.

:O que bueno!
yo hize varios temas de Escaflowne con el violín y la verdad que me salieron exactos aunque no completos jojo :]
No estoy seguro de cuales son xq yo los escuchaba en el ost q tenía y el ost me lo grabó un amigo sin ponerle tapa ni contratapa, asi q ni idea =x

Creo q uno de los temas se llamaba Sora.

_________________

(:

Lets get physical 

avatar
-LüK-
Admin
Admin

Masculino Escorpio Caballo
Procedencia : Argentina - Salta
Cantidad de envíos : 2156
Puntos €x : 5035
Pertenencias :
Estrellas
Mascotas
Objetos
Premios


Ver perfil de usuario

Volver arriba Ir abajo

Tocando Re: Para los aficionados a la guitarra

Mensaje por Contenido patrocinado


Contenido patrocinado


Volver arriba Ir abajo

Volver arriba

- Temas similares

 :: Otros Intereses ::  :: Música

 
Permisos de este foro:
No puedes responder a temas en este foro.